ISO-10303-21;
HEADER;
FILE_DESCRIPTION (( 'STEP AP214' ),
    '1' );
FILE_NAME ('Heater.step',
    '2018-06-21T12:58:14',
    ( 'User' ),
    ( 'china' ),
    'SwSTEP 2.0',
    'SolidWorks 2016',
    '' );
FILE_SCHEMA (( 'AUTOMOTIVE_DESIGN' ));
ENDSEC;

DATA;
#1 =( NAMED_UNIT ( * ) PLANE_ANGLE_UNIT ( ) SI_UNIT ( $, .RADIAN. ) );
#2 =( NAMED_UNIT ( * ) SI_UNIT ( $, .STERADIAN. ) SOLID_ANGLE_UNIT ( ) );
#3 =( LENGTH_UNIT ( ) NAMED_UNIT ( * ) SI_UNIT ( .MILLI., .METRE. ) );
#4 = SURFACE_STYLE_USAGE ( .BOTH. , #5 ) ;
#5 = SURFACE_SIDE_STYLE ('',( #56 ) ) ;
#6 =( NAMED_UNIT ( * ) SI_UNIT ( $, .STERADIAN. ) SOLID_ANGLE_UNIT ( ) );
#7 = DIRECTION ( 'NONE',  ( 1.000000000000000000, 0.0000000000000000000, 0.0000000000000000000 ) ) ;
#8 = FILL_AREA_STYLE ('',( #43 ) ) ;
#9 = APPLICATION_CONTEXT ( 'automotive_design' ) ;
#10 = ORIENTED_EDGE ( 'NONE', *, *, #265, .F. ) ;
#11 = APPLICATION_PROTOCOL_DEFINITION ( 'draft international standard', 'automotive_design', 1998, #9 ) ;
#12 = PRODUCT_RELATED_PRODUCT_CATEGORY ( 'part', '', ( #270 ) ) ;
#13 = MANIFOLD_SOLID_BREP ( 'ÊäÈë1', #55 ) ;
#14 = PRODUCT_DEFINITION_FORMATION_WITH_SPECIFIED_SOURCE ( 'ÈÎºÎ', '', #270, .NOT_KNOWN. ) ;
#15 = PRODUCT_DEFINITION ( 'Î´Öª', '', #14, #268 ) ;
#16 = AXIS2_PLACEMENT_3D ( 'NONE', #44, #223, #217 ) ;
#17 =( NAMED_UNIT ( * ) PLANE_ANGLE_UNIT ( ) SI_UNIT ( $, .RADIAN. ) );
#18 = SHAPE_DEFINITION_REPRESENTATION ( #163, #144 ) ;
#19 =( LENGTH_UNIT ( ) NAMED_UNIT ( * ) SI_UNIT ( .MILLI., .METRE. ) );
#20 = MECHANICAL_DESIGN_GEOMETRIC_PRESENTATION_REPRESENTATION (  '', ( #23 ), #122 ) ;
#21 = EDGE_LOOP ( 'NONE', ( #176, #85 ) ) ;
#22 = PRESENTATION_LAYER_ASSIGNMENT (  '', '', ( #23 ) ) ;
#23 = STYLED_ITEM ( 'NONE', ( #41 ), #144 ) ;
#24 = EDGE_LOOP ( 'NONE', ( #177, #194, #27, #153 ) ) ;
#25 = CARTESIAN_POINT ( 'NONE',  ( 0.0000000000000000000, 1.489822979376000100, -5.419999999999999900 ) ) ;
#26 =( GEOMETRIC_REPRESENTATION_CONTEXT ( 3 ) GLOBAL_UNCERTAINTY_ASSIGNED_CONTEXT ( ( #62 ) ) GLOBAL_UNIT_ASSIGNED_CONTEXT ( ( #19, #17, #6 ) ) REPRESENTATION_CONTEXT ( 'NONE', 'WORKASPACE' ) );
#27 = ORIENTED_EDGE ( 'NONE', *, *, #272, .T. ) ;
#28 = AXIS2_PLACEMENT_3D ( 'NONE', #59, #58, #49 ) ;
#29 = AXIS2_PLACEMENT_3D ( 'NONE', #68, #73, #69 ) ;
#30 = CARTESIAN_POINT ( 'NONE',  ( 2.949999999999999700, 0.0000000000000000000, 0.0000000000000000000 ) ) ;
#31 = AXIS2_PLACEMENT_3D ( 'NONE', #91, #81, #75 ) ;
#32 = AXIS2_PLACEMENT_3D ( 'NONE', #83, #89, #86 ) ;
#33 = DIRECTION ( 'NONE',  ( 0.0000000000000000000, 0.0000000000000000000, 1.000000000000000000 ) ) ;
#34 = AXIS2_PLACEMENT_3D ( 'NONE', #97, #96, #95 ) ;
#35 = AXIS2_PLACEMENT_3D ( 'NONE', #128, #102, #113 ) ;
#36 = AXIS2_PLACEMENT_3D ( 'NONE', #106, #64, #101 ) ;
#37 = DIRECTION ( 'NONE',  ( 0.0000000000000000000, 0.0000000000000000000, 1.000000000000000000 ) ) ;
#38 = VERTEX_POINT ( 'NONE', #288 ) ;
#39 = ADVANCED_FACE ( 'NONE', ( #150 ), #143, .T. ) ;
#40 = CARTESIAN_POINT ( 'NONE',  ( 0.0000000000000000000, 1.489822979376000100, -5.419999999999999900 ) ) ;
#41 = PRESENTATION_STYLE_ASSIGNMENT (( #4 ) ) ;
#42 = DIRECTION ( 'NONE',  ( -1.000000000000000000, 0.0000000000000000000, 0.0000000000000000000 ) ) ;
#43 = FILL_AREA_STYLE_COLOUR ( '', #45 ) ;
#44 = CARTESIAN_POINT ( 'NONE',  ( 0.0000000000000000000, 0.0000000000000000000, 0.0000000000000000000 ) ) ;
#45 = COLOUR_RGB ( '',0.5921568627450980400, 0.6666666666666666300, 0.6823529411764706100 ) ;
#46 = DIRECTION ( 'NONE',  ( -0.0000000000000000000, -0.0000000000000000000, 1.000000000000000000 ) ) ;
#47 = CARTESIAN_POINT ( 'NONE',  ( -2.949999999999999700, 0.0000000000000000000, 20.00000000000000000 ) ) ;
#48 = VERTEX_POINT ( 'NONE', #300 ) ;
#49 = DIRECTION ( 'NONE',  ( -1.000000000000000000, 0.0000000000000000000, 0.0000000000000000000 ) ) ;
#50 = UNCERTAINTY_MEASURE_WITH_UNIT (LENGTH_MEASURE( 1.000000000000000100E-005 ), #245, 'distance_accuracy_value', 'NONE');
#51 = CARTESIAN_POINT ( 'NONE',  ( -0.3898185985846999700, -1.602262449517000100, -5.419999999999999900 ) ) ;
#52 = CARTESIAN_POINT ( 'NONE',  ( 0.3898185985846999700, 1.489822979376000100, 0.0000000000000000000 ) ) ;
#53 = ADVANCED_FACE ( 'NONE', ( #142 ), #141, .T. ) ;
#54 = PLANE ( 'NONE',  #28 ) ;
#55 = CLOSED_SHELL ( 'NONE', ( #147, #166, #53, #293, #162, #279, #274, #39, #179, #253 ) ) ;
#56 = SURFACE_STYLE_FILL_AREA ( #8 ) ;
#57 = CARTESIAN_POINT ( 'NONE',  ( 0.3898185985846999700, -1.602262449517000100, -5.419999999999999900 ) ) ;
#58 = DIRECTION ( 'NONE',  ( 0.0000000000000000000, 0.0000000000000000000, 1.000000000000000000 ) ) ;
#59 = CARTESIAN_POINT ( 'NONE',  ( 0.0000000000000000000, 0.0000000000000000000, 20.00000000000000000 ) ) ;
#60 = CIRCLE ( 'NONE', #115, 0.3898185985846999700 ) ;
#61 = VERTEX_POINT ( 'NONE', #240 ) ;
#62 = UNCERTAINTY_MEASURE_WITH_UNIT (LENGTH_MEASURE( 1.000000000000000100E-005 ), #19, 'distance_accuracy_value', 'NONE');
#63 = DIRECTION ( 'NONE',  ( 0.0000000000000000000, 0.0000000000000000000, 1.000000000000000000 ) ) ;
#64 = DIRECTION ( 'NONE',  ( 0.0000000000000000000, 0.0000000000000000000, -1.000000000000000000 ) ) ;
#65 = VERTEX_POINT ( 'NONE', #239 ) ;
#66 = LINE ( 'NONE', #47, #80 ) ;
#67 = CARTESIAN_POINT ( 'NONE',  ( 0.3898185985846999700, 1.489822979376000100, -5.419999999999999900 ) ) ;
#68 = CARTESIAN_POINT ( 'NONE',  ( 0.0000000000000000000, 1.489822979376000100, 0.0000000000000000000 ) ) ;
#69 = DIRECTION ( 'NONE',  ( 1.000000000000000000, 0.0000000000000000000, 0.0000000000000000000 ) ) ;
#70 = FACE_OUTER_BOUND ( 'NONE', #190, .T. ) ;
#71 = CIRCLE ( 'NONE', #118, 0.3898185985846999700 ) ;
#72 = ORIENTED_EDGE ( 'NONE', *, *, #203, .T. ) ;
#73 = DIRECTION ( 'NONE',  ( 0.0000000000000000000, 0.0000000000000000000, -1.000000000000000000 ) ) ;
#74 = CYLINDRICAL_SURFACE ( 'NONE', #29, 0.3898185985846999700 ) ;
#75 = DIRECTION ( 'NONE',  ( 1.000000000000000000, 0.0000000000000000000, 0.0000000000000000000 ) ) ;
#76 = VECTOR ( 'NONE', #63, 1000.000000000000000 ) ;
#77 = PLANE ( 'NONE',  #31 ) ;
#78 = FACE_OUTER_BOUND ( 'NONE', #24, .T. ) ;
#79 = LINE ( 'NONE', #57, #76 ) ;
#80 = VECTOR ( 'NONE', #46, 1000.000000000000000 ) ;
#81 = DIRECTION ( 'NONE',  ( 0.0000000000000000000, 0.0000000000000000000, -1.000000000000000000 ) ) ;
#82 = ORIENTED_EDGE ( 'NONE', *, *, #261, .F. ) ;
#83 = CARTESIAN_POINT ( 'NONE',  ( 0.0000000000000000000, 1.489822979376000100, 0.0000000000000000000 ) ) ;
#84 = ORIENTED_EDGE ( 'NONE', *, *, #295, .F. ) ;
#85 = ORIENTED_EDGE ( 'NONE', *, *, #203, .F. ) ;
#86 = DIRECTION ( 'NONE',  ( -1.000000000000000000, 0.0000000000000000000, 0.0000000000000000000 ) ) ;
#87 = VECTOR ( 'NONE', #105, 1000.000000000000000 ) ;
#88 = FACE_OUTER_BOUND ( 'NONE', #182, .T. ) ;
#89 = DIRECTION ( 'NONE',  ( 0.0000000000000000000, 0.0000000000000000000, -1.000000000000000000 ) ) ;
#90 = CARTESIAN_POINT ( 'NONE',  ( 0.3898185985846999700, 1.489822979376000100, -5.419999999999999900 ) ) ;
#91 = CARTESIAN_POINT ( 'NONE',  ( 0.0000000000000000000, 0.0000000000000000000, -5.419999999999999900 ) ) ;
#92 = CIRCLE ( 'NONE', #34, 2.949999999999999700 ) ;
#93 = CIRCLE ( 'NONE', #36, 0.3898185985846999700 ) ;
#94 = PRESENTATION_STYLE_ASSIGNMENT (( #246 ) ) ;
#95 = DIRECTION ( 'NONE',  ( -1.000000000000000000, 0.0000000000000000000, 0.0000000000000000000 ) ) ;
#96 = DIRECTION ( 'NONE',  ( 0.0000000000000000000, 0.0000000000000000000, -1.000000000000000000 ) ) ;
#97 = CARTESIAN_POINT ( 'NONE',  ( 0.0000000000000000000, 0.0000000000000000000, 20.00000000000000000 ) ) ;
#98 = LINE ( 'NONE', #90, #87 ) ;
#99 = FACE_OUTER_BOUND ( 'NONE', #289, .T. ) ;
#100 = CIRCLE ( 'NONE', #32, 0.3898185985846999700 ) ;
#101 = DIRECTION ( 'NONE',  ( 1.000000000000000000, 0.0000000000000000000, 0.0000000000000000000 ) ) ;
#102 = DIRECTION ( 'NONE',  ( 0.0000000000000000000, 0.0000000000000000000, -1.000000000000000000 ) ) ;
#103 = CIRCLE ( 'NONE', #189, 0.3898185985846999700 ) ;
#104 = EDGE_LOOP ( 'NONE', ( #164, #277, #186, #145 ) ) ;
#105 = DIRECTION ( 'NONE',  ( 0.0000000000000000000, 0.0000000000000000000, 1.000000000000000000 ) ) ;
#106 = CARTESIAN_POINT ( 'NONE',  ( 0.0000000000000000000, -1.602262449517000100, 0.0000000000000000000 ) ) ;
#107 = VECTOR ( 'NONE', #157, 1000.000000000000000 ) ;
#108 = CIRCLE ( 'NONE', #198, 2.949999999999999700 ) ;
#109 = AXIS2_PLACEMENT_3D ( 'NONE', #123, #125, #121 ) ;
#110 = ORIENTED_EDGE ( 'NONE', *, *, #295, .T. ) ;
#111 = LINE ( 'NONE', #178, #107 ) ;
#112 = CIRCLE ( 'NONE', #109, 0.3898185985846999700 ) ;
#113 = DIRECTION ( 'NONE',  ( 1.000000000000000000, 0.0000000000000000000, 0.0000000000000000000 ) ) ;
#114 = VECTOR ( 'NONE', #195, 1000.000000000000000 ) ;
#115 = AXIS2_PLACEMENT_3D ( 'NONE', #40, #37, #42 ) ;
#116 = CIRCLE ( 'NONE', #201, 0.3898185985846999700 ) ;
#117 = LINE ( 'NONE', #171, #114 ) ;
#118 = AXIS2_PLACEMENT_3D ( 'NONE', #25, #33, #7 ) ;
#119 = VECTOR ( 'NONE', #192, 1000.000000000000000 ) ;
#120 = ORIENTED_EDGE ( 'NONE', *, *, #251, .F. ) ;
#121 = DIRECTION ( 'NONE',  ( 1.000000000000000000, 0.0000000000000000000, 0.0000000000000000000 ) ) ;
#122 =( GEOMETRIC_REPRESENTATION_CONTEXT ( 3 ) GLOBAL_UNCERTAINTY_ASSIGNED_CONTEXT ( ( #267 ) ) GLOBAL_UNIT_ASSIGNED_CONTEXT ( ( #3, #1, #2 ) ) REPRESENTATION_CONTEXT ( 'NONE', 'WORKASPACE' ) );
#123 = CARTESIAN_POINT ( 'NONE',  ( 0.0000000000000000000, 1.489822979376000100, 0.0000000000000000000 ) ) ;
#124 = CYLINDRICAL_SURFACE ( 'NONE', #204, 0.3898185985846999700 ) ;
#125 = DIRECTION ( 'NONE',  ( 0.0000000000000000000, 0.0000000000000000000, -1.000000000000000000 ) ) ;
#126 = CIRCLE ( 'NONE', #208, 2.949999999999999700 ) ;
#127 = CYLINDRICAL_SURFACE ( 'NONE', #205, 2.949999999999999700 ) ;
#128 = CARTESIAN_POINT ( 'NONE',  ( 0.0000000000000000000, 0.0000000000000000000, -5.419999999999999900 ) ) ;
#129 = DIRECTION ( 'NONE',  ( -1.000000000000000000, 0.0000000000000000000, 0.0000000000000000000 ) ) ;
#130 = DIRECTION ( 'NONE',  ( 0.0000000000000000000, 0.0000000000000000000, 1.000000000000000000 ) ) ;
#131 = FACE_OUTER_BOUND ( 'NONE', #104, .T. ) ;
#132 = CYLINDRICAL_SURFACE ( 'NONE', #207, 0.3898185985846999700 ) ;
#133 = CARTESIAN_POINT ( 'NONE',  ( 0.0000000000000000000, -1.602262449517000100, -5.419999999999999900 ) ) ;
#134 = CIRCLE ( 'NONE', #255, 2.949999999999999700 ) ;
#135 = CIRCLE ( 'NONE', #202, 0.3898185985846999700 ) ;
#136 = LINE ( 'NONE', #218, #119 ) ;
#137 = FACE_OUTER_BOUND ( 'NONE', #21, .T. ) ;
#138 = DIRECTION ( 'NONE',  ( -1.000000000000000000, 0.0000000000000000000, 0.0000000000000000000 ) ) ;
#139 = CARTESIAN_POINT ( 'NONE',  ( 0.0000000000000000000, 0.0000000000000000000, 0.0000000000000000000 ) ) ;
#140 = DIRECTION ( 'NONE',  ( 0.0000000000000000000, 0.0000000000000000000, 1.000000000000000000 ) ) ;
#141 = CYLINDRICAL_SURFACE ( 'NONE', #250, 2.949999999999999700 ) ;
#142 = FACE_OUTER_BOUND ( 'NONE', #269, .T. ) ;
#143 = CYLINDRICAL_SURFACE ( 'NONE', #254, 0.3898185985846999700 ) ;
#144 = ADVANCED_BREP_SHAPE_REPRESENTATION ( 'Heater', ( #13, #16 ), #26 ) ;
#145 = ORIENTED_EDGE ( 'NONE', *, *, #261, .T. ) ;
#146 = FACE_OUTER_BOUND ( 'NONE', #294, .T. ) ;
#147 = ADVANCED_FACE ( 'NONE', ( #137, #151, #149 ), #238, .F. ) ;
#148 = FACE_OUTER_BOUND ( 'NONE', #291, .T. ) ;
#149 = FACE_BOUND ( 'NONE', #271, .T. ) ;
#150 = FACE_OUTER_BOUND ( 'NONE', #285, .T. ) ;
#151 = FACE_BOUND ( 'NONE', #283, .T. ) ;
#152 = CARTESIAN_POINT ( 'NONE',  ( 0.0000000000000000000, -1.602262449517000100, -5.419999999999999900 ) ) ;
#153 = ORIENTED_EDGE ( 'NONE', *, *, #251, .T. ) ;
#154 = DIRECTION ( 'NONE',  ( 0.0000000000000000000, 0.0000000000000000000, 1.000000000000000000 ) ) ;
#155 = DIRECTION ( 'NONE',  ( 1.000000000000000000, 0.0000000000000000000, 0.0000000000000000000 ) ) ;
#156 = PLANE ( 'NONE',  #35 ) ;
#157 = DIRECTION ( 'NONE',  ( 0.0000000000000000000, 0.0000000000000000000, 1.000000000000000000 ) ) ;
#158 = DIRECTION ( 'NONE',  ( -1.000000000000000000, 0.0000000000000000000, 0.0000000000000000000 ) ) ;
#159 = ORIENTED_EDGE ( 'NONE', *, *, #199, .F. ) ;
#160 = DIRECTION ( 'NONE',  ( 0.0000000000000000000, 0.0000000000000000000, -1.000000000000000000 ) ) ;
#161 = CARTESIAN_POINT ( 'NONE',  ( 0.0000000000000000000, -1.602262449517000100, 0.0000000000000000000 ) ) ;
#162 = ADVANCED_FACE ( 'NONE', ( #146 ), #132, .T. ) ;
#163 = PRODUCT_DEFINITION_SHAPE ( 'NONE', 'NONE',  #15 ) ;
#164 = ORIENTED_EDGE ( 'NONE', *, *, #216, .F. ) ;
#165 = VERTEX_POINT ( 'NONE', #229 ) ;
#166 = ADVANCED_FACE ( 'NONE', ( #148 ), #127, .T. ) ;
#167 = ORIENTED_EDGE ( 'NONE', *, *, #212, .F. ) ;
#168 = ORIENTED_EDGE ( 'NONE', *, *, #214, .T. ) ;
#169 = ORIENTED_EDGE ( 'NONE', *, *, #197, .F. ) ;
#170 = ORIENTED_EDGE ( 'NONE', *, *, #212, .T. ) ;
#171 = CARTESIAN_POINT ( 'NONE',  ( -0.3898185985846999700, 1.489822979376000100, -5.419999999999999900 ) ) ;
#172 = ORIENTED_EDGE ( 'NONE', *, *, #216, .T. ) ;
#173 = VERTEX_POINT ( 'NONE', #225 ) ;
#174 = ORIENTED_EDGE ( 'NONE', *, *, #299, .T. ) ;
#175 = CARTESIAN_POINT ( 'NONE',  ( 0.0000000000000000000, 0.0000000000000000000, 20.00000000000000000 ) ) ;
#176 = ORIENTED_EDGE ( 'NONE', *, *, #219, .F. ) ;
#177 = ORIENTED_EDGE ( 'NONE', *, *, #210, .F. ) ;
#178 = CARTESIAN_POINT ( 'NONE',  ( -0.3898185985846999700, -1.602262449517000100, -5.419999999999999900 ) ) ;
#179 = ADVANCED_FACE ( 'NONE', ( #131 ), #124, .T. ) ;
#180 = DIRECTION ( 'NONE',  ( 1.000000000000000000, 0.0000000000000000000, 0.0000000000000000000 ) ) ;
#181 = CARTESIAN_POINT ( 'NONE',  ( 0.0000000000000000000, 0.0000000000000000000, 0.0000000000000000000 ) ) ;
#182 = EDGE_LOOP ( 'NONE', ( #200, #278 ) ) ;
#183 = COLOUR_RGB ( '',0.5921568627450980400, 0.6666666666666666300, 0.6823529411764706100 ) ;
#184 = DIRECTION ( 'NONE',  ( 0.0000000000000000000, 0.0000000000000000000, 1.000000000000000000 ) ) ;
#185 = DIRECTION ( 'NONE',  ( 1.000000000000000000, 0.0000000000000000000, 0.0000000000000000000 ) ) ;
#186 = ORIENTED_EDGE ( 'NONE', *, *, #292, .T. ) ;
#187 = ORIENTED_EDGE ( 'NONE', *, *, #199, .T. ) ;
#188 = DIRECTION ( 'NONE',  ( 0.0000000000000000000, 0.0000000000000000000, -1.000000000000000000 ) ) ;
#189 = AXIS2_PLACEMENT_3D ( 'NONE', #133, #130, #129 ) ;
#190 = EDGE_LOOP ( 'NONE', ( #159, #287 ) ) ;
#191 = VERTEX_POINT ( 'NONE', #209 ) ;
#192 = DIRECTION ( 'NONE',  ( -0.0000000000000000000, -0.0000000000000000000, 1.000000000000000000 ) ) ;
#193 = CARTESIAN_POINT ( 'NONE',  ( 0.0000000000000000000, -1.602262449517000100, 0.0000000000000000000 ) ) ;
#194 = ORIENTED_EDGE ( 'NONE', *, *, #297, .T. ) ;
#195 = DIRECTION ( 'NONE',  ( 0.0000000000000000000, 0.0000000000000000000, 1.000000000000000000 ) ) ;
#196 = VERTEX_POINT ( 'NONE', #221 ) ;
#197 = EDGE_CURVE ( 'NONE', #284, #65, #136, .T. ) ;
#198 = AXIS2_PLACEMENT_3D ( 'NONE', #139, #140, #138 ) ;
#199 = EDGE_CURVE ( 'NONE', #65, #61, #126, .T. ) ;
#200 = ORIENTED_EDGE ( 'NONE', *, *, #297, .F. ) ;
#201 = AXIS2_PLACEMENT_3D ( 'NONE', #152, #154, #155 ) ;
#202 = AXIS2_PLACEMENT_3D ( 'NONE', #161, #160, #158 ) ;
#203 = EDGE_CURVE ( 'NONE', #284, #165, #134, .T. ) ;
#204 = AXIS2_PLACEMENT_3D ( 'NONE', #193, #226, #224 ) ;
#205 = AXIS2_PLACEMENT_3D ( 'NONE', #230, #206, #237 ) ;
#206 = DIRECTION ( 'NONE',  ( 0.0000000000000000000, 0.0000000000000000000, 1.000000000000000000 ) ) ;
#207 = AXIS2_PLACEMENT_3D ( 'NONE', #241, #231, #222 ) ;
#208 = AXIS2_PLACEMENT_3D ( 'NONE', #175, #188, #185 ) ;
#209 = CARTESIAN_POINT ( 'NONE',  ( -0.3898185985846999700, 1.489822979376000100, -5.419999999999999900 ) ) ;
#210 = EDGE_CURVE ( 'NONE', #191, #38, #117, .T. ) ;
#211 = APPLICATION_PROTOCOL_DEFINITION ( 'draft international standard', 'automotive_design', 1998, #213 ) ;
#212 = EDGE_CURVE ( 'NONE', #196, #48, #135, .T. ) ;
#213 = APPLICATION_CONTEXT ( 'automotive_design' ) ;
#214 = EDGE_CURVE ( 'NONE', #173, #296, #116, .T. ) ;
#215 = PRODUCT_CONTEXT ( 'NONE', #9, 'mechanical' ) ;
#216 = EDGE_CURVE ( 'NONE', #296, #196, #111, .T. ) ;
#217 = DIRECTION ( 'NONE',  ( 1.000000000000000000, 0.0000000000000000000, 0.0000000000000000000 ) ) ;
#218 = CARTESIAN_POINT ( 'NONE',  ( 2.949999999999999700, 0.0000000000000000000, 20.00000000000000000 ) ) ;
#219 = EDGE_CURVE ( 'NONE', #165, #284, #108, .T. ) ;
#220 = EDGE_CURVE ( 'NONE', #296, #173, #103, .T. ) ;
#221 = CARTESIAN_POINT ( 'NONE',  ( -0.3898185985846999700, -1.602262449517000100, 0.0000000000000000000 ) ) ;
#222 = DIRECTION ( 'NONE',  ( 1.000000000000000000, 0.0000000000000000000, 0.0000000000000000000 ) ) ;
#223 = DIRECTION ( 'NONE',  ( 0.0000000000000000000, 0.0000000000000000000, 1.000000000000000000 ) ) ;
#224 = DIRECTION ( 'NONE',  ( 1.000000000000000000, 0.0000000000000000000, 0.0000000000000000000 ) ) ;
#225 = CARTESIAN_POINT ( 'NONE',  ( 0.3898185985846999700, -1.602262449517000100, -5.419999999999999900 ) ) ;
#226 = DIRECTION ( 'NONE',  ( 0.0000000000000000000, 0.0000000000000000000, -1.000000000000000000 ) ) ;
#227 = DIRECTION ( 'NONE',  ( 0.0000000000000000000, 0.0000000000000000000, 1.000000000000000000 ) ) ;
#228 = AXIS2_PLACEMENT_3D ( 'NONE', #236, #235, #233 ) ;
#229 = CARTESIAN_POINT ( 'NONE',  ( -2.949999999999999700, 0.0000000000000000000, 0.0000000000000000000 ) ) ;
#230 = CARTESIAN_POINT ( 'NONE',  ( 0.0000000000000000000, 0.0000000000000000000, 0.0000000000000000000 ) ) ;
#231 = DIRECTION ( 'NONE',  ( 0.0000000000000000000, 0.0000000000000000000, -1.000000000000000000 ) ) ;
#232 = DIRECTION ( 'NONE',  ( -1.000000000000000000, 0.0000000000000000000, 0.0000000000000000000 ) ) ;
#233 = DIRECTION ( 'NONE',  ( -1.000000000000000000, 0.0000000000000000000, 0.0000000000000000000 ) ) ;
#234 = ORIENTED_EDGE ( 'NONE', *, *, #210, .T. ) ;
#235 = DIRECTION ( 'NONE',  ( 0.0000000000000000000, 0.0000000000000000000, 1.000000000000000000 ) ) ;
#236 = CARTESIAN_POINT ( 'NONE',  ( 0.0000000000000000000, 0.0000000000000000000, 0.0000000000000000000 ) ) ;
#237 = DIRECTION ( 'NONE',  ( -1.000000000000000000, 0.0000000000000000000, 0.0000000000000000000 ) ) ;
#238 = PLANE ( 'NONE',  #228 ) ;
#239 = CARTESIAN_POINT ( 'NONE',  ( 2.949999999999999700, 0.0000000000000000000, 20.00000000000000000 ) ) ;
#240 = CARTESIAN_POINT ( 'NONE',  ( -2.949999999999999700, 0.0000000000000000000, 20.00000000000000000 ) ) ;
#241 = CARTESIAN_POINT ( 'NONE',  ( 0.0000000000000000000, 1.489822979376000100, 0.0000000000000000000 ) ) ;
#242 = DIRECTION ( 'NONE',  ( 1.000000000000000000, 0.0000000000000000000, 0.0000000000000000000 ) ) ;
#243 =( NAMED_UNIT ( * ) SI_UNIT ( $, .STERADIAN. ) SOLID_ANGLE_UNIT ( ) );
#244 =( NAMED_UNIT ( * ) PLANE_ANGLE_UNIT ( ) SI_UNIT ( $, .RADIAN. ) );
#245 =( LENGTH_UNIT ( ) NAMED_UNIT ( * ) SI_UNIT ( .MILLI., .METRE. ) );
#246 = SURFACE_STYLE_USAGE ( .BOTH. , #247 ) ;
#247 = SURFACE_SIDE_STYLE ('',( #263 ) ) ;
#248 = FILL_AREA_STYLE ('',( #276 ) ) ;
#249 = DIRECTION ( 'NONE',  ( 0.0000000000000000000, 0.0000000000000000000, -1.000000000000000000 ) ) ;
#250 = AXIS2_PLACEMENT_3D ( 'NONE', #252, #227, #232 ) ;
#251 = EDGE_CURVE ( 'NONE', #298, #38, #112, .T. ) ;
#252 = CARTESIAN_POINT ( 'NONE',  ( 0.0000000000000000000, 0.0000000000000000000, 0.0000000000000000000 ) ) ;
#253 = ADVANCED_FACE ( 'NONE', ( #99 ), #156, .T. ) ;
#254 = AXIS2_PLACEMENT_3D ( 'NONE', #282, #249, #242 ) ;
#255 = AXIS2_PLACEMENT_3D ( 'NONE', #181, #184, #180 ) ;
#256 = ORIENTED_EDGE ( 'NONE', *, *, #220, .F. ) ;
#257 =( GEOMETRIC_REPRESENTATION_CONTEXT ( 3 ) GLOBAL_UNCERTAINTY_ASSIGNED_CONTEXT ( ( #50 ) ) GLOBAL_UNIT_ASSIGNED_CONTEXT ( ( #245, #244, #243 ) ) REPRESENTATION_CONTEXT ( 'NONE', 'WORKASPACE' ) );
#258 = MECHANICAL_DESIGN_GEOMETRIC_PRESENTATION_REPRESENTATION (  '', ( #260 ), #257 ) ;
#259 = PRESENTATION_LAYER_ASSIGNMENT (  '', '', ( #260 ) ) ;
#260 = STYLED_ITEM ( 'NONE', ( #94 ), #13 ) ;
#261 = EDGE_CURVE ( 'NONE', #48, #196, #93, .T. ) ;
#262 = EDGE_CURVE ( 'NONE', #61, #65, #92, .T. ) ;
#263 = SURFACE_STYLE_FILL_AREA ( #248 ) ;
#264 = ORIENTED_EDGE ( 'NONE', *, *, #219, .T. ) ;
#265 = EDGE_CURVE ( 'NONE', #38, #298, #100, .T. ) ;
#266 = ORIENTED_EDGE ( 'NONE', *, *, #265, .T. ) ;
#267 = UNCERTAINTY_MEASURE_WITH_UNIT (LENGTH_MEASURE( 1.000000000000000100E-005 ), #3, 'distance_accuracy_value', 'NONE');
#268 = PRODUCT_DEFINITION_CONTEXT ( 'detailed design', #213, 'design' ) ;
#269 = EDGE_LOOP ( 'NONE', ( #275, #187, #84, #264 ) ) ;
#270 = PRODUCT ( 'Heater', 'Heater', '', ( #215 ) ) ;
#271 = EDGE_LOOP ( 'NONE', ( #82, #167 ) ) ;
#272 = EDGE_CURVE ( 'NONE', #280, #298, #98, .T. ) ;
#273 = ORIENTED_EDGE ( 'NONE', *, *, #272, .F. ) ;
#274 = ADVANCED_FACE ( 'NONE', ( #88 ), #77, .T. ) ;
#275 = ORIENTED_EDGE ( 'NONE', *, *, #197, .T. ) ;
#276 = FILL_AREA_STYLE_COLOUR ( '', #183 ) ;
#277 = ORIENTED_EDGE ( 'NONE', *, *, #220, .T. ) ;
#278 = ORIENTED_EDGE ( 'NONE', *, *, #299, .F. ) ;
#279 = ADVANCED_FACE ( 'NONE', ( #78 ), #74, .T. ) ;
#280 = VERTEX_POINT ( 'NONE', #67 ) ;
#281 = ORIENTED_EDGE ( 'NONE', *, *, #292, .F. ) ;
#282 = CARTESIAN_POINT ( 'NONE',  ( 0.0000000000000000000, -1.602262449517000100, 0.0000000000000000000 ) ) ;
#283 = EDGE_LOOP ( 'NONE', ( #120, #10 ) ) ;
#284 = VERTEX_POINT ( 'NONE', #30 ) ;
#285 = EDGE_LOOP ( 'NONE', ( #281, #168, #172, #170 ) ) ;
#286 = ORIENTED_EDGE ( 'NONE', *, *, #214, .F. ) ;
#287 = ORIENTED_EDGE ( 'NONE', *, *, #262, .F. ) ;
#288 = CARTESIAN_POINT ( 'NONE',  ( -0.3898185985846999700, 1.489822979376000100, 0.0000000000000000000 ) ) ;
#289 = EDGE_LOOP ( 'NONE', ( #256, #286 ) ) ;
#290 = ORIENTED_EDGE ( 'NONE', *, *, #262, .T. ) ;
#291 = EDGE_LOOP ( 'NONE', ( #110, #290, #169, #72 ) ) ;
#292 = EDGE_CURVE ( 'NONE', #173, #48, #79, .T. ) ;
#293 = ADVANCED_FACE ( 'NONE', ( #70 ), #54, .T. ) ;
#294 = EDGE_LOOP ( 'NONE', ( #273, #174, #234, #266 ) ) ;
#295 = EDGE_CURVE ( 'NONE', #165, #61, #66, .T. ) ;
#296 = VERTEX_POINT ( 'NONE', #51 ) ;
#297 = EDGE_CURVE ( 'NONE', #191, #280, #60, .T. ) ;
#298 = VERTEX_POINT ( 'NONE', #52 ) ;
#299 = EDGE_CURVE ( 'NONE', #280, #191, #71, .T. ) ;
#300 = CARTESIAN_POINT ( 'NONE',  ( 0.3898185985846999700, -1.602262449517000100, 0.0000000000000000000 ) ) ;
ENDSEC;
END-ISO-10303-21;
